ISO-10303-21;
HEADER;
FILE_DESCRIPTION (( 'STEP AP203' ),
    '1' );
FILE_NAME ('QB-CTZQWP-25.4-633-M.STEP',
    '2020-12-24T01:51:10',
    ( '' ),
    ( '' ),
    'SwSTEP 2.0',
    'SolidWorks 2020',
    '' );
FILE_SCHEMA (( 'CONFIG_CONTROL_DESIGN' ));
ENDSEC;

DATA;
#1 = EDGE_CURVE ( 'NONE', #4, #46, #98, .T. ) ;
#2 = VERTEX_POINT ( 'NONE', #18 ) ;
#3 = APPROVAL_DATE_TIME ( #28, #69 ) ;
#4 = VERTEX_POINT ( 'NONE', #157 ) ;
#5 = APPROVAL_ROLE ( '' ) ;
#6 = PERSON_AND_ORGANIZATION ( #80, #112 ) ;
#7 = PERSON_AND_ORGANIZATION ( #80, #112 ) ;
#8 = CARTESIAN_POINT ( 'NONE',  ( 3.000000000000000000, 0.000000000000000000, 15.00000000000000000 ) ) ;
#9 = CARTESIAN_POINT ( 'NONE',  ( 3.000000000000000000, 0.000000000000000000, 0.000000000000000000 ) ) ;
#10 = CYLINDRICAL_SURFACE ( 'NONE', #68, 15.00000000000000000 ) ;
#11 = DATE_AND_TIME ( #107, #56 ) ;
#12 = CC_DESIGN_DATE_AND_TIME_ASSIGNMENT ( #168, #158, ( #163 ) ) ;
#13 = VECTOR ( 'NONE', #51, 1000.000000000000000 ) ;
#14 = PRODUCT_RELATED_PRODUCT_CATEGORY ( 'detail', '', ( #132 ) ) ;
#15 = ORIENTED_EDGE ( 'NONE', *, *, #1, .F. ) ;
#16 = EDGE_LOOP ( 'NONE', ( #101, #99, #141, #116 ) ) ;
#17 = CIRCLE ( 'NONE', #32, 15.00000000000000000 ) ;
#18 = CARTESIAN_POINT ( 'NONE',  ( 3.000000000000000000, 1.836970198721029589E-15, -15.00000000000000000 ) ) ;
#19 = CC_DESIGN_PERSON_AND_ORGANIZATION_ASSIGNMENT ( #6, #155, ( #81 ) ) ;
#20 = PERSON_AND_ORGANIZATION ( #80, #112 ) ;
#21 = CARTESIAN_POINT ( 'NONE',  ( -3.000000000000000888, 12.69999999999999929, 0.000000000000000000 ) ) ;
#22 = APPROVAL_PERSON_ORGANIZATION ( #67, #164, #114 ) ;
#23 = APPROVAL_ROLE ( '' ) ;
#24 = LINE ( 'NONE', #91, #152 ) ;
#25 = FACE_OUTER_BOUND ( 'NONE', #16, .T. ) ;
#26 = PERSON_AND_ORGANIZATION_ROLE ( 'creator' ) ;
#27 = CC_DESIGN_PERSON_AND_ORGANIZATION_ASSIGNMENT ( #20, #34, ( #163 ) ) ;
#28 = DATE_AND_TIME ( #111, #125 ) ;
#29 = APPROVAL_DATE_TIME ( #50, #164 ) ;
#30 = PERSON_AND_ORGANIZATION ( #80, #112 ) ;
#31 = ORIENTED_EDGE ( 'NONE', *, *, #1, .T. ) ;
#32 = AXIS2_PLACEMENT_3D ( 'NONE', #63, #171, #40 ) ;
#33 = DIRECTION ( 'NONE',  ( -1.000000000000000000, -0.000000000000000000, -0.000000000000000000 ) ) ;
#34 = PERSON_AND_ORGANIZATION_ROLE ( 'classification_officer' ) ;
#35 = DIRECTION ( 'NONE',  ( 1.000000000000000000, 0.000000000000000000, 0.000000000000000000 ) ) ;
#36 = ADVANCED_FACE ( 'NONE', ( #74 ), #128, .T. ) ;
#37 = FACE_OUTER_BOUND ( 'NONE', #126, .T. ) ;
#38 = LOCAL_TIME ( 9, 51, 10.00000000000000000, #96 ) ;
#39 =( GEOMETRIC_REPRESENTATION_CONTEXT ( 3 ) GLOBAL_UNCERTAINTY_ASSIGNED_CONTEXT ( ( #87 ) ) GLOBAL_UNIT_ASSIGNED_CONTEXT ( ( #64, #172, #106 ) ) REPRESENTATION_CONTEXT ( 'NONE', 'WORKASPACE' ) );
#40 = DIRECTION ( 'NONE',  ( 0.000000000000000000, 0.000000000000000000, 1.000000000000000000 ) ) ;
#41 = CARTESIAN_POINT ( 'NONE',  ( 0.000000000000000000, 0.000000000000000000, 0.000000000000000000 ) ) ;
#42 = CC_DESIGN_SECURITY_CLASSIFICATION ( #163, ( #81 ) ) ;
#43 = DATE_TIME_ROLE ( 'creation_date' ) ;
#44 = AXIS2_PLACEMENT_3D ( 'NONE', #48, #102, #159 ) ;
#45 = AXIS2_PLACEMENT_3D ( 'NONE', #75, #33, #89 ) ;
#46 = VERTEX_POINT ( 'NONE', #144 ) ;
#47 = APPROVAL_STATUS ( 'not_yet_approved' ) ;
#48 = CARTESIAN_POINT ( 'NONE',  ( -3.000000000000000000, 0.000000000000000000, 0.000000000000000000 ) ) ;
#49 = PERSON_AND_ORGANIZATION_ROLE ( 'creator' ) ;
#50 = DATE_AND_TIME ( #86, #160 ) ;
#51 = DIRECTION ( 'NONE',  ( -1.000000000000000000, -0.000000000000000000, -0.000000000000000000 ) ) ;
#52 = CC_DESIGN_PERSON_AND_ORGANIZATION_ASSIGNMENT ( #166, #49, ( #81 ) ) ;
#53 = DIRECTION ( 'NONE',  ( -1.000000000000000000, -0.000000000000000000, -0.000000000000000000 ) ) ;
#54 = MANIFOLD_SOLID_BREP ( 'Ðý×', #118 ) ;
#55 = APPROVAL_DATE_TIME ( #175, #70 ) ;
#56 = LOCAL_TIME ( 9, 51, 10.00000000000000000, #83 ) ;
#57 = EDGE_LOOP ( 'NONE', ( #76, #143, #113, #15 ) ) ;
#58 = COORDINATED_UNIVERSAL_TIME_OFFSET ( 8, 0, .AHEAD. ) ;
#59 = DESIGN_CONTEXT ( 'detailed design', #137, 'design' ) ;
#60 = SECURITY_CLASSIFICATION_LEVEL ( 'unclassified' ) ;
#61 = DIRECTION ( 'NONE',  ( -1.000000000000000000, 0.000000000000000000, -0.000000000000000000 ) ) ;
#62 = LOCAL_TIME ( 9, 51, 10.00000000000000000, #58 ) ;
#63 = CARTESIAN_POINT ( 'NONE',  ( 3.000000000000000000, 0.000000000000000000, 0.000000000000000000 ) ) ;
#64 =( LENGTH_UNIT ( ) NAMED_UNIT ( * ) SI_UNIT ( .MILLI., .METRE. ) );
#65 = ADVANCED_FACE ( 'NONE', ( #37 ), #120, .F. ) ;
#66 = CARTESIAN_POINT ( 'NONE',  ( -1.614212418857619014, 0.000000000000000000, 0.000000000000000000 ) ) ;
#67 = PERSON_AND_ORGANIZATION ( #80, #112 ) ;
#68 = AXIS2_PLACEMENT_3D ( 'NONE', #66, #130, #119 ) ;
#69 = APPROVAL ( #47, 'UNSPECIFIED' ) ;
#70 = APPROVAL ( #147, 'UNSPECIFIED' ) ;
#71 = APPLICATION_CONTEXT ( 'configuration controlled 3d designs of mechanical parts and assemblies' ) ;
#72 = VERTEX_POINT ( 'NONE', #8 ) ;
#73 = COORDINATED_UNIVERSAL_TIME_OFFSET ( 8, 0, .AHEAD. ) ;
#74 = FACE_OUTER_BOUND ( 'NONE', #57, .T. ) ;
#75 = CARTESIAN_POINT ( 'NONE',  ( -1.614212418857619014, 0.000000000000000000, 0.000000000000000000 ) ) ;
#76 = ORIENTED_EDGE ( 'NONE', *, *, #115, .F. ) ;
#77 = CARTESIAN_POINT ( 'NONE',  ( -1.614212418857619014, 0.000000000000000000, 15.00000000000000000 ) ) ;
#78 = APPLICATION_PROTOCOL_DEFINITION ( 'international standard', 'config_control_design', 1994, #71 ) ;
#79 = EDGE_CURVE ( 'NONE', #2, #72, #17, .T. ) ;
#80 = PERSON ( 'UNSPECIFIED', 'UNSPECIFIED', 'UNSPECIFIED', ('UNSPECIFIED'), ('UNSPECIFIED'), ('UNSPECIFIED') ) ;
#81 = PRODUCT_DEFINITION_FORMATION_WITH_SPECIFIED_SOURCE ( 'ANY', '', #132, .NOT_KNOWN. ) ;
#82 = PLANE ( 'NONE',  #167 ) ;
#83 = COORDINATED_UNIVERSAL_TIME_OFFSET ( 8, 0, .AHEAD. ) ;
#84 = CC_DESIGN_APPROVAL ( #69, ( #163 ) ) ;
#85 = ORIENTED_EDGE ( 'NONE', *, *, #97, .T. ) ;
#86 = CALENDAR_DATE ( 2020, 24, 12 ) ;
#87 = UNCERTAINTY_MEASURE_WITH_UNIT (LENGTH_MEASURE( 1.000000000000000082E-05 ), #64, 'distance_accuracy_value', 'NONE');
#88 = COORDINATED_UNIVERSAL_TIME_OFFSET ( 8, 0, .AHEAD. ) ;
#89 = DIRECTION ( 'NONE',  ( 0.000000000000000000, 0.000000000000000000, 1.000000000000000000 ) ) ;
#90 = PERSON_AND_ORGANIZATION_ROLE ( 'design_owner' ) ;
#91 = CARTESIAN_POINT ( 'NONE',  ( -1.614212418857619014, 1.836970198721029589E-15, -15.00000000000000000 ) ) ;
#92 = AXIS2_PLACEMENT_3D ( 'NONE', #9, #94, #135 ) ;
#93 = PERSON_AND_ORGANIZATION ( #80, #112 ) ;
#94 = DIRECTION ( 'NONE',  ( -1.000000000000000000, -0.000000000000000000, -0.000000000000000000 ) ) ;
#95 = CC_DESIGN_APPROVAL ( #70, ( #133 ) ) ;
#96 = COORDINATED_UNIVERSAL_TIME_OFFSET ( 8, 0, .AHEAD. ) ;
#97 = EDGE_CURVE ( 'NONE', #46, #4, #142, .T. ) ;
#98 = CIRCLE ( 'NONE', #44, 15.00000000000000000 ) ;
#99 = ORIENTED_EDGE ( 'NONE', *, *, #115, .T. ) ;
#100 = CIRCLE ( 'NONE', #92, 15.00000000000000000 ) ;
#101 = ORIENTED_EDGE ( 'NONE', *, *, #108, .T. ) ;
#102 = DIRECTION ( 'NONE',  ( -1.000000000000000000, -0.000000000000000000, -0.000000000000000000 ) ) ;
#103 = APPROVAL_STATUS ( 'not_yet_approved' ) ;
#104 = CALENDAR_DATE ( 2020, 24, 12 ) ;
#105 = ADVANCED_FACE ( 'NONE', ( #146 ), #82, .F. ) ;
#106 =( NAMED_UNIT ( * ) SI_UNIT ( $, .STERADIAN. ) SOLID_ANGLE_UNIT ( ) );
#107 = CALENDAR_DATE ( 2020, 24, 12 ) ;
#108 = EDGE_CURVE ( 'NONE', #72, #2, #100, .T. ) ;
#109 = AXIS2_PLACEMENT_3D ( 'NONE', #41, #173, #35 ) ;
#110 = ORIENTED_EDGE ( 'NONE', *, *, #108, .F. ) ;
#111 = CALENDAR_DATE ( 2020, 24, 12 ) ;
#112 = ORGANIZATION ( 'UNSPECIFIED', 'UNSPECIFIED', '' ) ;
#113 = ORIENTED_EDGE ( 'NONE', *, *, #127, .T. ) ;
#114 = APPROVAL_ROLE ( '' ) ;
#115 = EDGE_CURVE ( 'NONE', #2, #4, #24, .T. ) ;
#116 = ORIENTED_EDGE ( 'NONE', *, *, #127, .F. ) ;
#117 = SHAPE_DEFINITION_REPRESENTATION ( #174, #153 ) ;
#118 = CLOSED_SHELL ( 'NONE', ( #169, #105, #36, #65 ) ) ;
#119 = DIRECTION ( 'NONE',  ( 0.000000000000000000, 0.000000000000000000, 1.000000000000000000 ) ) ;
#120 = PLANE ( 'NONE',  #138 ) ;
#121 = DIRECTION ( 'NONE',  ( -0.000000000000000000, 0.000000000000000000, 1.000000000000000000 ) ) ;
#122 = APPLICATION_PROTOCOL_DEFINITION ( 'international standard', 'config_control_design', 1994, #137 ) ;
#123 = CARTESIAN_POINT ( 'NONE',  ( -3.000000000000000000, 0.000000000000000000, 0.000000000000000000 ) ) ;
#124 = PERSON_AND_ORGANIZATION ( #80, #112 ) ;
#125 = LOCAL_TIME ( 9, 51, 10.00000000000000000, #88 ) ;
#126 = EDGE_LOOP ( 'NONE', ( #85, #31 ) ) ;
#127 = EDGE_CURVE ( 'NONE', #72, #46, #162, .T. ) ;
#128 = CYLINDRICAL_SURFACE ( 'NONE', #45, 15.00000000000000000 ) ;
#129 = DIRECTION ( 'NONE',  ( -1.000000000000000000, -0.000000000000000000, -0.000000000000000000 ) ) ;
#130 = DIRECTION ( 'NONE',  ( -1.000000000000000000, -0.000000000000000000, -0.000000000000000000 ) ) ;
#131 = DIRECTION ( 'NONE',  ( 1.000000000000000000, 0.000000000000000000, 0.000000000000000000 ) ) ;
#132 = PRODUCT ( 'QB-CTZQWP-25.4-633-M', 'QB-CTZQWP-25.4-633-M', '', ( #161 ) ) ;
#133 = PRODUCT_DEFINITION ( 'UNKNOWN', '', #81, #59 ) ;
#134 = APPROVAL_PERSON_ORGANIZATION ( #93, #70, #23 ) ;
#135 = DIRECTION ( 'NONE',  ( 0.000000000000000000, 0.000000000000000000, 1.000000000000000000 ) ) ;
#136 = CARTESIAN_POINT ( 'NONE',  ( 3.000000000000000888, 12.69999999999999929, 0.000000000000000000 ) ) ;
#137 = APPLICATION_CONTEXT ( 'configuration controlled 3d designs of mechanical parts and assemblies' ) ;
#138 = AXIS2_PLACEMENT_3D ( 'NONE', #21, #131, #149 ) ;
#139 = CC_DESIGN_PERSON_AND_ORGANIZATION_ASSIGNMENT ( #124, #26, ( #133 ) ) ;
#140 = CC_DESIGN_APPROVAL ( #164, ( #81 ) ) ;
#141 = ORIENTED_EDGE ( 'NONE', *, *, #97, .F. ) ;
#142 = CIRCLE ( 'NONE', #170, 15.00000000000000000 ) ;
#143 = ORIENTED_EDGE ( 'NONE', *, *, #79, .T. ) ;
#144 = CARTESIAN_POINT ( 'NONE',  ( -3.000000000000000000, 0.000000000000000000, 15.00000000000000000 ) ) ;
#145 = CC_DESIGN_DATE_AND_TIME_ASSIGNMENT ( #11, #43, ( #133 ) ) ;
#146 = FACE_OUTER_BOUND ( 'NONE', #154, .T. ) ;
#147 = APPROVAL_STATUS ( 'not_yet_approved' ) ;
#148 = DIRECTION ( 'NONE',  ( 0.000000000000000000, 0.000000000000000000, 1.000000000000000000 ) ) ;
#149 = DIRECTION ( 'NONE',  ( 0.000000000000000000, 0.000000000000000000, -1.000000000000000000 ) ) ;
#150 = CALENDAR_DATE ( 2020, 24, 12 ) ;
#151 = CC_DESIGN_PERSON_AND_ORGANIZATION_ASSIGNMENT ( #7, #90, ( #132 ) ) ;
#152 = VECTOR ( 'NONE', #53, 1000.000000000000000 ) ;
#153 = ADVANCED_BREP_SHAPE_REPRESENTATION ( 'QB-CTZQWP-25.4-633-M', ( #54, #109 ), #39 ) ;
#154 = EDGE_LOOP ( 'NONE', ( #110, #165 ) ) ;
#155 = PERSON_AND_ORGANIZATION_ROLE ( 'design_supplier' ) ;
#156 = APPROVAL_PERSON_ORGANIZATION ( #30, #69, #5 ) ;
#157 = CARTESIAN_POINT ( 'NONE',  ( -3.000000000000000000, 1.836970198721029589E-15, -15.00000000000000000 ) ) ;
#158 = DATE_TIME_ROLE ( 'classification_date' ) ;
#159 = DIRECTION ( 'NONE',  ( 0.000000000000000000, 0.000000000000000000, 1.000000000000000000 ) ) ;
#160 = LOCAL_TIME ( 9, 51, 10.00000000000000000, #73 ) ;
#161 = MECHANICAL_CONTEXT ( 'NONE', #71, 'mechanical' ) ;
#162 = LINE ( 'NONE', #77, #13 ) ;
#163 = SECURITY_CLASSIFICATION ( '', '', #60 ) ;
#164 = APPROVAL ( #103, 'UNSPECIFIED' ) ;
#165 = ORIENTED_EDGE ( 'NONE', *, *, #79, .F. ) ;
#166 = PERSON_AND_ORGANIZATION ( #80, #112 ) ;
#167 = AXIS2_PLACEMENT_3D ( 'NONE', #136, #61, #121 ) ;
#168 = DATE_AND_TIME ( #104, #62 ) ;
#169 = ADVANCED_FACE ( 'NONE', ( #25 ), #10, .T. ) ;
#170 = AXIS2_PLACEMENT_3D ( 'NONE', #123, #129, #148 ) ;
#171 = DIRECTION ( 'NONE',  ( -1.000000000000000000, -0.000000000000000000, -0.000000000000000000 ) ) ;
#172 =( NAMED_UNIT ( * ) PLANE_ANGLE_UNIT ( ) SI_UNIT ( $, .RADIAN. ) );
#173 = DIRECTION ( 'NONE',  ( 0.000000000000000000, 0.000000000000000000, 1.000000000000000000 ) ) ;
#174 = PRODUCT_DEFINITION_SHAPE ( 'NONE', 'NONE',  #133 ) ;
#175 = DATE_AND_TIME ( #150, #38 ) ;
ENDSEC;
END-ISO-10303-21;
